jueves, 27 de noviembre de 2008

Vinnie Moore Discografía


Hola acá les dejo la discografía de éste genial guitarrista para que la disfruten! Están en formato mp3 con una resolución de audio realmente es-pec-ta-cu-lar। Como todo lo que subo, libre 100 % de virus। Los títulos son:


Vinnie_Moore_-_Defying_Gravity


http://www.badongo.com/es/file/10361057


Vinnie_Moore_-_Live


http://www.badongo.com/es/file/10361384


Vinnie_Moore_-_Minds_Eye


http://www.badongo.com/es/file/10361665


Vinnie_Moore_-_The_Maze


http://www.badongo.com/es/file/10362372


Vinnie_Moore_-_Time_ओद्य्स्सेय


http://www.badongo.com/es/file/10362712


Vinnie_Moore_-_Out_Of_नोव्हेरे


http://www.badongo.com/es/file/10361919



viernes, 30 de mayo de 2008

Jason Becker



Jason Becker es un guitarrista virtuoso, nacido el 22 de julio, 1969, Estados Unidos.
Comenzó a tocar la guitarra desde muy joven, debido a que su padre y su tío eran guitarristas. Tocaba temas de Bob Dylan, Eric Clapton, Jeff Beck, Jimi Hendrix, Eddie Van Halen e Yngwie Malmsteen etc, además como el mismo afirma en su video "The legendary guitar of Jason Becker", aprendió a tocar de oído y de forma autodidacta, ya que traspasó ampliamente las influencias de su tío y su padre: "escuchaba frases de Yngwie Malmsteen en sus conciertos o una obra de Stravinski y luego tocaba esas frases de oído en mi guitarra, los fallos que cometía al tocarlas de oído hicieron que desarrollase mis propias frases". A los 16 años conoce a Marty Friedman, guitarrista que ya había editado un par de discos.





Perpetual Burn- 192Kbps

1. Altitudes
2. Perpetual Burn
3. Mabel's Fatal Fable
4. Air
5. Temple Of The Absurd
6. Eleven Blue Egyptians
7. Dweller In The Cellar8. Opus Pocus


58 MB





Perspective - 160Kbps

1. Primal
2. Rain
3. End Of The Beginning
4. Higher
5. Blue
6. Life & Death
7. Empire
8. Serrana
9. Meet Me In The Morning
1 68 MB








The Raspberry Jams - 160Kbps VBR



1. Becker-Ola
2. Mandy's Throbbing Little Heart
3. Amma
4. When You Wish Upon A Star
5. Jasin Street
6. Beatle Grubs
7. Grilled Peeps
8. If You Have To Shoot... Shoot - Don't Talk
9. Purple Chewable Fern
10. Black Stallion Jam
11. Amarnath
12. Angel Eyes
13. Throat Hole
14. Dang Sea of Samsara
15. Urmila
16. Thousand Million Suns
17. Clean Solo
18. Too Fast, No Good for You!
19. Sweet Baboon
20. Shock Tea
21. Ghost to the Post
22. Blood on the Trachesç
23. Oddly Enough
24. Crush
25. Vocal Silliness


68 MB





The Blackberry Jams - 320Kbps
1. Go Off! Intro
2. Groin-Grabbingly Transcendent
3. Opitudes
4. Church Of The Weird
5. Mabel's Air...Could It BE Any Faster?
6. Short X-Ray Eyes
7. Airage
8. Perpetual Burn
9. Ashram Of You, Lee
10. Images Intro
11. Mabel...Simple Little Nibbling
12. Jewel
13. Kind Of Like A Spring
14. Air
15. Ten Yellow Pointy Kitties
16. Absurd Temple Jig
17. Part Of Stranger
18. There's That
19. Black Cat
20. Little Rippage
21. Perpetual Tudes
22. Floor Pie
23. El Beckero
24. Pocus I Say
25. Conglomeration...Boy Meets Guitar
26. Little Dweller
27. Jewel #2
28. Long X-Ray Eyes
29. Altitudes Jam
30. Bemesderfer's Wooping Stick
31. If It Wern't So Purdy I'd Call It Skin Flute







Warmth In The Wilderness Vol. I & II (Tribute to Jason Becker)
http://tinyurl.com/2c3ywuhttp://tinyurl.com/25bjyahttp://tinyurl.com/2xygp4senha: guitar

viernes, 16 de mayo de 2008

Paganini


Paganini 

Concertos de paganini
Concerto nº 01 para violino em D de Paganini - Solista Salvatore Accardo 


Movimentos:

1º Allegro Maestoso
2º Adagio
3º Rondo. Alegro Spiritu
http://rapidshare.com/files/97336185/Concerto_No.01_in_D.rar.html
http://www.badongo.com/file/8743073

Concerto nº 02 para Violino em B de Paganini - Solista Salvatore Accardo 
Movimentos:
1º Allegro Maestoso
2º Adagio
3º Rondo
DOWNLOAD http://rapidshare.com/files/99227136/Concerto_No.02_in_B.rar.html
http://www.badongo.com/file/8743153

Concerto nº 03 para Violino em E Maior de Paganini - Solista Salvatore Accardo
Movimentos:
1º Introduzione
2º Adagio. Cantabile Spianato
3º Andatino vivace
http://rs163.rapidshare.com/files/101975954/Concerto_para_Violino_de_Paganini_No._03_in_E_Major.rar
http://www.badongo.com/file/8511477

Concerto nº 04 para Violino em D Menor de Paganini - Solista Salvatore Accardo
Movimentos:
1º Allegro maestoso
2º Adagio flebile con sentimento
3º Rondo galente. Andantino gaio
http://rapidshare.com/files/104556700/Concerto_para_Violino_de_Paganini_No.04_in_D_Minor.rar.html
http://www.badongo.com/file/8725063


Concerto nº 05 para Violino em A Menor de Paganini - Solista Salvatore Accardo
Movimentos:
1º Allegro maestoso
2º Andante, un poco sostenuto
3º Finale - Rondo. Andantino quasi Allegretto

http://rapidshare.com/files/104586636/Concerto_para_Violino_de_Paganini_No._05_in_A_Minor.rar.html
http://www.badongo.com/file/8722764

Concerto nº 06 para Violino em E Menor de Paganini - Salvatore Accardo
Movimentos:
1º Risoluto
2º Adagio
3º Rondo ossia Polonese
http://rapidshare.com/files/104837628/Concerto_para_Violino_de_Paganini_No._06_in_E_Minor.rar
http://www.badongo.com/file/8723603


De : http://maisumadofalsario.blogspot.com/

viernes, 9 de mayo de 2008

HolyHell Apocalypse - 2007


Son apenas cuatro canciones, todas espectaculares. Se trata de HolyHell, banda formada en el 2005 y cuyo primer trabajo es este, un demo lanzado el año pasado. Esta banda promete, espero que s vengan con más.
Line-up:
Maria Breon - VocalsJoe Stump - Guitar (ex-Shooting Hemlock, The Reign of Terror, ex-MVP)Tom Hess - GuitarFrancisco Palomo - Keyboard (Cristal y Acero)Jay Rigney - Bass (Event, ex-MVP, The Reign of Terror)Kenny Earl "Rhino" Edwards - Drums (ex-Manowar)
Género: Symphonic Power Metal

País: Estados Unidos

Tracklist:
1. Apocalypse 04:07
2. Resurrection 06:30
3. Phantom of the Opera (Live) 06:17
4. Last Vision 08:16

Total playing time 25:10

http://www.zshare.net/download/11521276b0564430/

lunes, 5 de mayo de 2008

Michael Romeo The Dark Chapter


Michael Romeo The Dark Chapter

01. Carpathia

02. Cask Of Amontillado

03. Psychotic Episode

04. Masque Of The Red Death

05. Sevil Alucard

06. The Premature Burial

07. MJR#1308. Paganini - Concerto In B Minor

09. Noit Al Ever


sábado, 3 de mayo de 2008

Michael Romeo - Guitar Chapter

Michael Romeo - Guitar Chapter (1 of 5)






Ex 1

g-16-16-16-16 repeat with alternate picking

g-16-14-12-16-14-12-16-14-12-14-12-11-16-12-11-12-11-9-12-11-9-8-11-9-8-9-]

Ex 2

e-----------------------------------------14-16-17---
b---------------------------------14-16-17-----------
g-------------------------13-14-16-------------------
d-----------------13-14-16---------------------------
a---------12-14-16-----------------------------------
E-12-14-16-------------------------------------------

e-17-16-14-------------------------------------------]
b---------17-16-14-----------------------------------]
g-----------------16-14-13---------------------------]
d-------------------------16-14-13-------------------]
a---------------------------------16-14-12-----------]
E-----------------------------------------16-14-12---]


Ex 3

e-20-19-17---------------------------------------------------------------
b---------20-19-17-16-17-19-17-16----------------------------------------
g--------------------------------17-16-14-17-16-14-----------------------
d-------------------------------------------------17-16-14-13-14-16-14-13
a------------------------------------------------------------------------
E------------------------------------------------------------------------

a-15-14-12-15-14-12----------------------------------]
E------------------15-14-12-11-12-14-12-11-9-11-12---]


Ex 4

e15-14-12----------------------------------------------------------------
b--------15-13--------13-15-17-15-13------------------------------------
g-------------15-13-15--------------15-13--------13-15-17-15-13----------
d---------------------------------------16-14-16--------------16-14------
a------------------------------------------------------------------17-15-17

d-14-16-18-16-14---------------------]
a---------------17-15----------------]
E--------------------18-16-14-16-----]


Ex 5

e-21-20-18-17-18-20-18-17----------------------------------------------
b------------------------20-19-17-16-17-19-17-16-----------------------
g-----------------------------------------------17-16-14-13-14-16-14-13


d-16-15-13-12-13-15-13-12------------------------------------------------
a------------------------15-14-12-11-12-14-12-11------------------------
E-----------------------------------------------14-13-11-10-11-13-11-10-11

Ex 6

e-15-14-12--------------12-14-15-14-12----------------------------
b-----------------------------------------------------------------
g---------15-14-12-14-15--------------15-14-12-15-14-12-----------
d-----------------------------------------------------------------
a------------------------------------------------------16-15-13-15


Ex 7

e----------------------------------------------------------8h-10h-12
b-------------------------------------------------8h-10h-12---------
g---------------------------------5h-7h-9-7h-9h-12------------------
d--------------------------5h-7h-9----------------------------------
a--------3h-5h-7s-9-5h-7h-9-----------------------------------------
E-3h-5h-7-----------------------------------------------------------

e-10h-12h-14---15---]


Ex 8

e-10h-12p-8------------------------------------------------]
b----------10h-12p-8---------------------------------------]
g-------------------10h-12p-9------------------------------]
d----------------------------10h-12p-9---------------------]
a-------------------------------------10h-12p-8------------]
E----------------------------------------------10h-12p-8---]


Ex 9

e-15h-17p-12--------------------------------------------------------
b-----------15h-17p-12----------------------------------------------
g---------------------14h-16p-12------------------------------------
d-------------------------------14h-17p-12--------------------------
a-----------------------------------------14h-17p-12----------------
E---------------------------------------------------15h-17-12h-15---

e-----------------------------------------15h-17h-19p-17p-15h-17s-24vb--]
b-----------------------------------15h-17------------------------------]
g-------------12h-14s-17------14h-16------------------------------------]
d-------12h-14----------14h-17------------------------------------------]
a-12h-14----------------------------------------------------------------]


Ex 10

b----------------------------------------------------12h-15h-18----------
g--------------------------------12h-15h-18--------------------12h-15h-18
d-----------12h-15h-18---------------------12h-15h-18--------------------
a---------------------12h-15h-18-----------------------------------------
E-12h-15h-18-------------------------------------------------------------


Michael Romeo - Guitar Chapter (2 of 5)




Ex 11

e---19-18-19-17-19-15-19-14-19---19---19---19---19---19---19---19-
b-----------------------------17---15---14------------------15---14
g16------------------------------------------16---16---16--------

e18-15-14-18---18---18---18---18---18---18---18---18---18-14-19---19---19
b------------17---15---14------------------14---15---17---------15------
g---------------------------16---15---16-----------------------------16--
d-----------------------------------------------------------------------16

e-19---19----------]
b------------------]
g------------------]
d------------------]
a---17---14---14---]


Michael Romeo - Guitar Chapter (3 of 5)



Ex 12

g-----------------13-14--------14-13-------------------]
d---------12-14-15------------------15-14-12-----------]
a-12-14-15----------------------------------15-14-12---]


Ex 13

e--------13-16-17-16-13--------------------------------------------------
b13-15-17--------------17-15-13------------------------------------------
g------------------------------16-14-13----------------------------------
d--------------------------------------15-14-12--------------------------
a----------------------------------------------15-14-12-14-12-11---------
E--------------------------------------------------------------13-12-10-12


Ex 14

e-20-19-17----------------------------------------------------]
b---------20-19-17-16-----------------------------------------]
g--------------------17-16-14---------------------------------]
d----------------------------17-16-14-13----------------------]
a---------------------------------------15-14-12--------------]
E-----------------------------------------------15-14-12-11---]


Ex 15

----------------------------------------11-12-14-15--15-12-------------
--------------------------------11-13-14------------------14-----------
------------------------11-12-14----------------------------15-12-------
----------------11-13-14-----------------------------------------14-11--
--------12-13-15-----------------------------------------------------13-10
12-14-15----------------------------------------------------------------12

Ex 16

e---------------------------------------------------11h-14h-17--
b-------------------------------10h-13h-16----------------------
g-----------11h-14h-17--------------------11h-14h-17------------
d---------------------10h-13h-16--------------------------------
a-12h-15h-18----------------------------------------------------


e-----------14h-17h-20---]
b------------------------]
g-14h-17h-20-------------]


Ex 17

e-----------------------------------14-16-18---]
b---------------------------13-15-17-----------]
g----------------------13-15-------------------]
d--------------12-14-16------------------------]
a---------13-15--------------------------------]

E-12-14-16-------------------------------------]


Ex 18

e---------------------12h-14h-16p-14p-12-------------------------
b---------------------------------------17p-15p-13---------------
g-------------------------------------------------17p-15p-13-----
d-----------12h-14h-16--------------------------------------------
a-----------------------------------------------------------17p-15p-13
E-12h-14h-16---------------------------------------------------------


---------------------------14h-16h-18p-16p-14--------------------------
----------------------------------------------19p-17p-15----------------
-------------------------------------------------------19p-17p-15------
------------------14h-16h-18--------------------------------------------
----------------------------------------------------------------19p-17p-15
18p-16p-14h-16h-18------------------------------------------------------


Ex 19

b------------------------------------------------------------13h-4h-17
g---------------------------------------11h-12h-15-11h-12h-15---------
d------------------10h-11h-14-10h-11h-14------------------------------
a---------9h-10h-13---------------------------------------------------
E-8h-9h-12-----------------------------------------------------------

e-----------14h-15h-18-14h-15h-18-20---]
b-13h-14h-17---------------------------]


Ex 20


d---------------------------------------------10h-11h-14h-17p-14p-11p-10
a----------------------9h-10h-13h-16p-13p-10p-9------------------------
E8h-9h-12h-15p-12p-9p-8-----------------------------------------------


------------------------------------------------14h-15h-18h-21p-18p-15p-14
------------------------13h-14h-17h-20p-17p-14p-13----------------------
11h-12h-15h-18p-15p-12p-11------------------------------------------------



Ex 21

e-15-19-15-------------15-19-17-15-14-17-14-------------14-17-15-14-
b---------------------------------------------------------------------
g---------19-16---16-19--------------------17-14---14-17--------------
d--------------17-------------------------------16--------------------

e-12-15-12-------------12-15-14-12-10-14-10-------------10-14-12-10---
b---------------------------------------------------------------------
g---------16-12---12-16--------------------14-11---11-14--------------
d--------------14-------------------------------12--------------------

e-8-12-8-----------8-12-10-8-9-12-9-----------9-12-10-9-10-14-10------
b---------------------------------------------------------------------
g-------12-9---9-12----------------12-9---9-12------------------------
d-----------10-------------------------11-----------------------------

e--------------10-14-12-10-11-14-11-------------11-14-12-11-----------
b---------------------------------------------------------------------
g-14-11---11-14--------------------14-11---11-14----------------------
d------12-------------------------------13----------------------------

12-16-12-------------12-16-12--------12-16-12-16s-19-16------------------
-------------------------------------------------------17----------------
--------16-13---13-16--------16-13-16--------------------16--------------
-------------14--------------------------------------------18------------
-------------------------------------------------------------19-16-14----
--------------------------------------------------------------------161412




Michael Romeo - Guitar Chapter (4 of 5)




Ex 22

e-20-15--------------------15-10---20-15--------------------15-20---
b------17----------------17-------------16----------------17--------
g--------17------------17-----------------17------------17----------
d----------17--------17---------------------17--------17------------
a------------19-15-19-------------------------18-15-18--------------

e-20-17----------------------17-20---]
b------19------------------19--------]
g--------20-17--------17-20----------]
d-------------19-16-19---------------]


Ex 23

e-------------9-12s-17-12---------------]
b-----------10-----------14-------------]
g----------9---------------14-----------]
d-----7s-11------------------14----14---]
a----7-------------------------16-------]
E-5-9----------------------------12-----]


Ex 24

e---------------------12h-15h-17p-15p-12-----------------------]
b--------------------------------------------------------------]
g-----------12h-14h-17------------------17p-14p-12-------------]
d--------------------------------------------------------------]
a-12h-15h-19--------------------------------------19p-15p-12---]



Ex 25

-----3-8-3s-12-8s-15-12--------------------15h-20h-22s-24s-22p-20p-15
----5------------------13----------------17-------------------------17
---5---------------------12------------17-----------------------------17
--5------------------------14--------17--------------------------------17
37---------------------------15-15-19-----------------------------------19


Ex 26

e----------------------12h-15h-17---]
b-----------------------------------]
g-----------12h-14h-17--------------]
d-----------------------------------]
a-12h-15h-19------------------------]


Ex 27

e---------------------12h-16h-17p-16p-12-----------------------]
b--------------------------------------------------------------]
g-----------13h-14h-18------------------18p-14p-13-------------]
d--------------------------------------------------------------]
a-12h-16h-19--------------------------------------19p-16p-12---]



Ex 28

e---------------------12h-15h-17p-15p-12-----------------------]
b--------------------------------------------------------------]
g-----------12h-14h-18------------------18p-14p-12-------------]
d--------------------------------------------------------------]
a-12h-16h-19--------------------------------------19p-16p-12---]



Ex 29

e---------------------11h-14h-17p-14p-11-----------------------]
b--------------------------------------------------------------]
g-----------11h-14h-17------------------17p-14p-11-------------]
d--------------------------------------------------------------]
a-12h-15h-18--------------------------------------18p-15p-12---]



Ex 30

e-------------------------------------14h-17h-19p-17p-14-------------]
b-------------------------------14h-15------------------15-----------]
g---------------------11h-14h-16--------------------------14---------]
d---------------11h-12--------------------------------------16-------]
a------9h-12h-14----------------------------------------------17-----]
e-9h-10--------------------------------------------------------------]


Ex 31

e-17p-15p-12-----------------------------------------]
b-----------14p-12s-10-------------------------------]
g---------------------14p-12p-9----------------------]
d------------------------------11p-9s-7--------------]
a--------------------------------------12p-10p-7-----]
E------------------------------------------------9---]









Joe Stump - Armed and Ready





http://rapidshare.com/files/16954897/Joe_Stump.rar

Robert Marcello

Aqui es dejo estos videos disfrutenlos a mi parecer un buen guiarrisa Neo Clasico










Classical Legends - Mozart - The Definitive Collection (3CDs)



Cd 1
http://rapidshare.com/files/34474482/Classical_Legends_-_Mozart_-_The_Definitive_Collection.part1.rar

Cd 2
http://rapidshare.com/files/34487193/Classical_Legends_-_Mozart_-_The_Definitive_Collection.part2.rar

Cd 3
http://rapidshare.com/files/34489364/Classical_Legends_-_Mozart_-_The_Definitive_Collection.part3.rar

Paganini Caprices(24)


http://rapidshare.com/files/20392412/Caprices__24__for_Solo_Violin_-_Salvatore_Accardo.rar

sábado, 16 de febrero de 2008

Neo Classical Sweep



SI ALGUIEN TIENE LA TABLATURA DE ESTE TEMA PORFAVOR HACERLA LLEGAR AL CORREO PARA POSTERIORMENTE PUBLICARLA OBIAMENTE CON LOS AGRADECIMIENTOS CORRESPONDIENTES...
ATTE GRACIAS
serverxat@hotmail.com

lunes, 21 de enero de 2008

Neoclassical Guitar Licks

Bueno pequeños licks la mayoria de Yngwie J. Malmsteen enjoi!!!

Lick 1:
12-17-12----------12-17-12----------12-16-12----------12-16-12----
---------13----13----------13----13----------15-12-15----------15-
------------14----------------14----------------------------------
------------------------------------------------------------------
------------------------------------------------------------------
------------------------------------------------------------------

------||5-8-5-------5-8-5-------7-10-7-------7-10-7-------8-12-8--
12-15-||------6---6-------7---7--------8---8--------9---9---------
-----*||--------5-----------7------------7------------9-----------
-----*||----------------------------------------------------------
------||----------------------------------------------------------
------||----------------------------------------------------------

-------7-10-7-------8-12-8---------7-10-7-------8-12-8------------
10--10--------9---9--------10---10--------9---9--------10---------
--9-------------9-------------9-------------9-------------9-------
------------------------------------------------------------10----
---------------------------------------------------------------12-
------------------------------------------------------------------

---------------12-17
------------13------
---------14---------
------14------------
12-15---------------
--------------------

Lick 2: (de la canción "Liar")
4-7-4-------4-7-10-7--------7-8-12-8---------8-12-17-12---------
------6---6----------9----9----------10---10------------13----13
--------7--------------10---------------9------------------14---
----------------------------------------------------------------
----------------------------------------------------------------
----------------------------------------------------------------

12-||9-12-9---------10-13-10---------7-10-7-------8-
---||-------10---10----------10---10--------8---8---
--*||----------9---------------10-------------7-----
--*||-----------------------------------------------
---||-----------------------------------------------
---||-----------------------------------------------

12-8-------6-10-6-------5-8-5-------4-7-4-------4-5
-----8---8--------6---6-------5---5-------5---5----
-------7------------7-----------5-----------7------
---------------------------------------------------
---------------------------------------------------
---------------------------------------------------

Lick 3: (de la canción "Never Die")
12-8---------8-12-8---------7-10-7--------7-10-7--------5-8-5-----
-----10---10--------10---10--------9----9--------9----9-------5---
--------9--------------9-------------10------------10-----------5-
------------------------------------------------------------------
------------------------------------------------------------------
------------------------------------------------------------------

--5-8-5-------4-7-4-------4-7-4-------7-10-7--------7-10-7--------
5-------5---5-------6---6-------6---6--------9----9--------9----9-
----------5-----------7-----------7------------10------------10---
------------------------------------------------------------------
------------------------------------------------------------------
------------------------------------------------------------------

8-12-8---------8-12-8---------11-14-11----------11-14-11----------
-------10---10--------10---10----------13----13----------13----13-
----------9--------------9----------------14----------------14----
------------------------------------------------------------------
------------------------------------------------------------------
------------------------------------------------------------------

11-16h17p16h17p16h17p16h17p16
-----------------------------
-----------------------------
-----------------------------
-----------------------------
-----------------------------

Lick 4 (tapping a la Malmsteen)
T T T T T T T T T T T T
/13-12-13-10-13-8-13-7-13-8-13-10-13-8-13-7-12-10-12-8-12-7-12-5-
-----------------------------------------------------------------
-----------------------------------------------------------------
-----------------------------------------------------------------
-----------------------------------------------------------------
-----------------------------------------------------------------

T T T T
12-7-12-8-12-7-12-5
-------------------
-------------------
-------------------
-------------------
-------------------

Lick 5 (este lick se toca muy rápido :p)
13-12-10----------------------------------------------------------
---------13-12-10-9-10-12-10-9------------------------------------
-------------------------------10-9-7-----------------------------
--------------------------------------10-9-7-6-7-9-7-6------------
-------------------------------------------------------8-7-5------
-------------------------------------------------------------8-7-5

Lick 6 (de la canción "I'll see the light tonight")
10-13-12-13-10-13-12-13-8-12-10-12-8-12-10-12-7-10-8-10-7-10-8-10-
------------------------------------------------------------------
------------------------------------------------------------------
------------------------------------------------------------------
------------------------------------------------------------------
------------------------------------------------------------------

5-8-7-8-5-8-7-8-10-13-12-13-7-10-8-10-8-12-10-12-5-8-7-8-7-10-8-10
------------------------------------------------------------------
------------------------------------------------------------------
------------------------------------------------------------------
------------------------------------------------------------------
------------------------------------------------------------------

-4-7-5-7-5-8-7-8-5-8-7-4-7-5-7-7-10-8-10-5-8-7-8-5-8-7-8-7-10-8-10
------------------------------------------------------------------
------------------------------------------------------------------
------------------------------------------------------------------
------------------------------------------------------------------
------------------------------------------------------------------

-10-13-12-13-8-12-10-12-10-13-12-13-------------------------------
------------------------------------9-12-10-12--------------------
-----------------------------------------------7-10-9-10----------
---------------------------------------------------------6-9-7-9--
-----------------------------------------------------------------5
------------------------------------------------------------------

----------------------------------
----------------------------------
----------------------------------
-----------------------6-7-9-7-6-5
-8-7-8---------5-8-7-8------------
-------4-7-5-7--------------------

Lick 7:
------12-17-12----------12-13-15-12-13-15-17-13-15-17-19-15-17-19-20
---13----------13----13---------------------------------------------
14----------------14------------------------------------------------
--------------------------------------------------------------------
--------------------------------------------------------------------
--------------------------------------------------------------------

Lick 8:
13-12-13-10-13-8-13----13----13----12-10-12-8-12-7-12----12---12---
--------------------12----10----12--------------------10----9----10
-------------------------------------------------------------------
-------------------------------------------------------------------
-------------------------------------------------------------------
-------------------------------------------------------------------

Lick 9:
4-5-7-4-5-7/8-5-7-8/10-7-8-10/12-8-10-12/13-10-12-13/16-12-13-16/17
-------------------------------------------------------------------
-------------------------------------------------------------------
-------------------------------------------------------------------
-------------------------------------------------------------------
-------------------------------------------------------------------

viernes, 11 de enero de 2008

Elementos típicos del Neoclassical Metal

Harmonic Minor - Escala Aeolian modo con un grado planteadas 7th escala.
Melodic Minor - Escala Aeolian modo con un planteadas 6 y 7 de la escala grado.

Ciclo De quintos, una progresión de acordes, donde cada uno se convierte en el acorde dominante de la siguiente por ejemplo: Am, Dm, G, C, F, Bdim, E, Am.
- Suspensiones cadencias o "la progresión de acordes terminaciones", donde la verdadera armonía de acordes se empuja a cabo o "suspendido" por otro, la no armonía nota y luego reafirma en sí. Ejemplos: 4th sustituye a 3 ª, 6 ª sustituye a 5 ª, 9 ª sustituir 8th o de octava.

Las progresiones de acordes, arpegios, y corre rápido escala de neoclásico de metal se inspiran en su mayor parte de Johann Sebastian Bach, Antonio Vivaldi, Niccolo Paganini, Wolfgang Amadeus Mozart y Ludwig Van Beethoven, en especial las tres primeras. Así que veamos a algunos ejemplos.

Ex. 1
Harmonic Minor Scale (Aeolian mode with a raised 7th scale degree)
----------------------------------1-2-4---5-----
-----------------------------2-3----------------
---------------------1-2-4----------------------
----------------3-4-----------------------------
--------2-4-5-----------------------------------
-2-4-5------------------------------------------

Melodic minor scale (Aeolian mode with a raised 6th and 7th scale degree)
---------------------------1-2-4--4-2-1----------------------------
-----------------------2-4--------------2-3------------------------
-----------------1-2-4----------------------4-2-1------------------
-----------1-2-4----------------------------------4-3--------------
-------2-4--------------------------------------------5-4-2--------
-2-4-5------------------------------------------------------5-4-2--

A menor escala melódica es un menor escala en la que jugar el 6 y 7 de grado medio paso, pero sólo cuando se juega la escala ascendente. Luego cuando playign la escala hacia abajo por lo general, inferior el 6 y posiblemente el 7 º en función de lo racional que desea. Por neoclásico de metal que va a convertir a un menor armónica. Leí un puesto de greta el otro día cuando alguien que estaba explicando acerca de la crianza de los grados. Realmente me ayudó a entenderlo. Si es decir para tener un menor naturales, por ejemplo.


A B C D E F G - 1 2 3 4 5 6 7

Harmonic minor has raised 7th


A B C D E F G# - 1 2 3 4 5 6 #7

Melodic minor has raised 6th and 7th


A B C D E F# G# - 1 2 3 4 5 #6 #7

Cicle de quintas.
Aprender a utilizar esto realmente puede ayudarle a desarrollar las ideas clásicas de sondeo. Si escuchar un montón de música clásica - la cuerda pautas se basan en torno a esta. Aquí hay un ejemplo de un patrón de acordes.



Am Dm GCFBE horas

Aquí hay un diagrama el elemento que explica en cierta medida. Por favor tenga en cuenta: tendrá que ser buena en general con la teoría de la música, incluso tener una oportunidad de este entendimiento inmediatamente.

"Si la igualdad de comenzar cualquier genio sube de tono y reiteradamente por el musical de un intervalo de quinta perfecta, eventualmente la tierra en una parcela con la misma clase que el lanzamiento inicial, pasando por todos los demás, la igualdad de clases, moderado tono cromático En el medio. " Se trata de un libro. Sonidos confusos sé. Me tomó un tiempo para comprender. Así es como yo lo veo.

El círculo está dividido en 12 partes o "segmentos" de lo que nunca se te guste. La clave de C está en la parte superior. En una secuencia de las agujas del reloj, la clave de las firmas se añaden a cada uno de los segmentos en los intervalos de un 5 º. Si usted se mueve en sentido horario en 5ths alrededor de este círculo, se encontrará con que cada uno de los principales escala difiere de la anterior escala por una sola nota. En cada caso, la posterior escala mayor está formado por la recaudación o nitidez (#) la nota sobre el 7 º grado (la principal nota) por medio de paso / semitono.

En forma similar, si usted va a la izquierda (o de la otra manera para usted que no están familiarizados con las palabras largas) el círculo en 4ths existe también un conector de diferencia entre cada par de escalas. En estos casos, la nueva escala se forma mediante la reducción / aplanamiento (b) la nota sobre el 4 º (Sub - dominante) grados de la escala anterior.

miércoles, 9 de enero de 2008

Cacophony




Banda de música Estadounidense de la década de los 80' influenciada por un estilo speed metal combinándolo con un extremo virtuosismo en las guitarras, cuyos solos están basados en cortes neoclásicos. Liderada por Jason Becker, uno de los guitarristas más virtuosos dentro del Heavy Metal, más específicamente el metal neoclásico, y por Marty Friedman, virtuoso ex guitarrista de Megadeth. Hay que decir que si bien esta banda se mantuvo en un círculo "underground", esta marcó la pauta y el ocaso de la ultima época del heavy metal a finales de la década de los 80' junto con el estilo al cual aportaron indudablemente, el metal neoclásico. Esta banda no continuó componiendo debido a una temprana enfermedad de uno de sus importantes integrantes, Jason Becker, el cual contrajo esclerosis lateral amiotrófica (ALS, el mal de Lou Gehrig), un mal que lo afecta paralizandole e impidiéndole progresivamente el uso de su aparato motor, lo que llevó definitivamente a una brusco término de tan importante y prometedora banda. * Marty Friedman - Guitarrista * Jason Becker - Guitarrista * Peter Marrino - Cantante * Oriax Beniz - Bajo * Kenny Stavropoulos - Baterista



DISCOGRAFIA


Speed Metal Symphony (1987)




1. "Savage" (Becker/Friedman)– 5:50
2. "Where My Fortune Lies" (Becker/Friedman)– 4:32
3. "The Ninja" (Becker/Friedman)– 7:24
4. "Concerto" (Becker/Friedman)– 4:37
5. "Burn the Ground" (Becker/Friedman)– 6:50
6. "Desert Island" (Becker/Friedman)– 6:24
7. "Speed Metal Symphony" (Becker/Friedman)– 9:32



Go Off! (1988)


1. "X-Ray Eyes" – 5:10
2. "E.S.P." – 6:06
3. "Stranger" – 3:24
4. "Go Off!" – 3:46
5. "Black Cat" – 7:45
6. "Sword of the Warrior" – 5:09
7. "Floating World" – 5:10
8. "Images" – 3:43




jueves, 3 de enero de 2008

Conviertete en un Neoclasico!!!

Speed Metal Neoclassical Styles






ESPECTACULAR libro, en el cual, Dave Celentano se luce magistralmente mostrandonos sus adaptaciones de algunos temas de antiguos compositores, ya sea el barroco bach, el clasico paganini o el grandioso (para no decir de nuevo barroco xD) vivaldi. con este libro, tendremos mas que un rato de entretencion, ya que la complejidad de algunos de los temas hacen la terea de sacarlos todo un reto (por ejemplo, el capricho 24 de paganini les dara mas que un dolor de cabeza xD). no los aburro mas, y los dejo con esta gran obra:

http://rapidshare.com/files/77888592/Greg_Howe_-_Speed_Metal_Neoclassical_Styles.rar.html

CHAMBER METAL - NEO CLASSICAL METAL GUITAR





Esto es una recopilacion de guitarristas CHECOS NEO - CLASSICAL METAL GUITAR recomendado al 100%



01 Sarabande.../Fading Away Podolsky, Joshua C.
02 Clash With Devil Dolezal, Milos "Dodo"
03 Gutzy Rose Behunek, Honza K.
04 Whipped Cream Paste
05 Broken Helm Topor, Jura J.
06 Jumper Lace Kriz, Roman K.
07 To Escape for Life Dolezal, Milo
08 Stormy Winter Nights Berka, Stanislav
09 Presto Kriz, Roman K.
10 Universe Behunek, Honza K.
11 What a Nice Day Berka, Stanislav
12 Snowflake in the Wind Topor, Jura J.
13 Let's Have a Drink Paste
14 Eye Alone... / Allegro Podolsky, Joshua C.






Pass: guitar

Luca Turilli




Información general
Origen
Italia
Género(s)
Symphonic power metal
Tiempo
1997-actualidad
Sitio web
http://lucaturilli.eu/
Luca Turilli, nacido el 5 de marzo de 1972, es un músico italiano. Es uno de los fundadores de la banda de metal sinfónico Rhapsody of Fire. Luca Turilli también ha trabajado en una trilogía de discos de carácter solista. Su tercer álbum, The Infinite Wonders of Creation, ya está terminado y fue lanzado al mercado el día 26 de mayo del 2006.
Tabla de contenidos

Biografía
Turilli nació en Trieste, Italia. Su padre se llama Luigi y su madre Nelly y fue hijo único. Se graduó a los 21 años y estudió en un instituto de matemáticas en Triestre. Debido a la influencia de su padre, él se interesó en la música clásica en su adolescencia. Su primer instrumento fue la flauta a los 14 años, luego aprendió a tocar el piano y posteriormente la guitarra a los 16 años. En 1993, él junto con su compañero y tecladista Alex Staropoli, fundaron el grupo Thundercross, que fue renombrado Rhapsody después del lanzamiento de su primer demo la cual actualmente es llamada Rhapsody of Fire debido a problemas legales.
Como muchos guitarristas en el power metal, sus solos son bastante técnicos. Demuestra su capacidad con una técnica llamada "Sweeping" (Barridos), abusando de la triada y el arpegio en unas sofisticadas composiciones para así proporcionarse auntenticidad en la composición de la línea de primera guitarra. Aunque, sin embargo, Luca Turilli ha dicho en entrevistas que se considera a sí mismo más un compositor que un guitarrista. A raíz de esto, se ha encargado de siempre priorizar la composición musical, dando matices preciosistas, arreglos bien logrados y emotividad a sus últimas composiciones, con un talento evidente que satisface a sus fans y seguidores.
Actualmente Luca Turilli trabaja en el segundo disco de su tercera banda llamada Luca Turilli's Dreamquest, la cual lanzó su disco debut el día 9 de junio del 2006. También se encuentra en la producción de su 4º álbum solo, el cual será un tributo a la banda de power metal Helloween, ya que este álbum será como un imaginario "Keepper of the 7 Keys p.3" debido a que este álbum tendra mucho power metal pero a la vez contrastará con una gran orquesta y diversos invitados especiales.

Formación solista
Luca Turilli - Guitarra, teclados adicionales
Olaf Hayer - Vocales
Bridget Fogle - Vocalista invitada
Sascha Paeth - Bajo, acústica y guitarras adicionales
Miro - Teclado
Robert Hunecke - Rizzo—Batería
Andrè Matos - Vocalista Invitado en (Prophet of the last eclipse)

Discografía
albums

Luca Turilli (Rhapsody) - Discografía completa!

Luca Turilli - King of the Nordic Twilight (1999)






Tracklist:


1. To Magic Horizons

2. Black Dragon

3. Legend Of Steel

4. Lord Of The Winter Snow

5. Princess Aurora

6. The Ancient Forest Of Elves

7. Throne Of Ice
8. Where Heroes Lie

9. Warrior's pride

10. Kings Of The Nordic Twilight

11. Rannveig Sif Sigurdardottir







Luca Turilli - Prophet Of The Last Eclipse (2002)






Tracklist:

1. Aenigma

2. War Of The Universe

3. Rider Of The Astral Fire

4. Zaephyr Skies' Theme
5. The Age Of Mystic Ice

6. Prince Of The Starlight

7. Timeless Oceans

8. Demonheart

9. New Century's Tarantella

10. Prophet Of The Last Eclipse

11. Dark Comet's Reign 1

12. Demonheart (Vocals by Andre Matos)








Luca Turilli's Dreamquest - Lost Horizons (2006)




Tracklist:

1. Introspection
2. Virus

3. Dreamquest
4. Black Rose
5. Lost Horizons

6. Sospiro Divino

7. Shades Of Eternity

8. Energy

9. Frozen Star

10. Kyoto's Romance

11. Too Late

12. Dolphin's Heart

13. Gothic Vision




Luca Turilli - The Infinite Wonders of Creation (2006) Por último, el para mi mejor disco con la increible y potente voz de Bridget Fogle como vocalista invitada. Aclaro para el que ya se hartó de bajar que no es el que en los temas se baja de repente el volumen, a este lo extraje yo a (en MP3 a 256 kbps) y anda perfecto.


TrackList:
1. Secrets Of Forgotten Ages
2. Mother Nature
3. Angels Of The Winter Dawn
4. Altitudes
5. The Miracle Of Life
6. Silver Moon
7. Cosmic Revelation
8. Pyramids And Stargates
9. Mystic And Divine
10. The Infinite Wonders Of Creation
11. Altitudes (Piano version)
Eso es todo Enjoi...

miércoles, 2 de enero de 2008

Michael Romeo





Michael comenzó a tocar guitarra a los 14 años pero hasta los 18 años se dedicó en serio, tomando como principales influencias a Steve Vai, Al Di Meola, J. S. Bach, John Williams y Frank Zappa, aunque trazó una inclinación más fuerte hacia el estilo neoclásico pesado de Yngwie Malmsteen. A pesar de esto, Michael mantiene un estilo propio que lo hace distinguir del resto de guitarristas del género al fusionar exóticas escalas y arpegios, ritmos poco comunes y un duro estilo neoclásico. Además, Michael es un excelente compositor de música, lo que marca la diferencia entre él y muchos otros guitarristas. Todos estos factores hacen que mucha gente lo considere uno de los mejores del mundo.
A la edad de 19 Michael fue uno de los finalistas de la nacionalmente conocida competición de "Sam Ash Music Store". Sus habilidades y composiciones fueron famosas en revistas como Guitar World, Guitarist Network, Metal Brigade y Burrn!
Aunque Michael ha recibido una gran cobertura en algunas revistas relacionadas con el mundo de la guitarra, él es más conocido por su rol como guitarrista principal de la banda de metal progresivo Symphony X, la cual fundó en 1994 después de la petición de un sello japonés quienes quedaron impresionados por la cinta demo de Romeo, The Dark Chapter.
Michael también posee un vídeo instruccional llamado "The Guitar Chapter", en el cual demuestra su virtuosismo, y su técnica basada en el sweep tapping.

Influencias

Steve Vai
Randy Rhoads
Al DiMeola
Yngwie Malmsteen
Alan Holdsworth
Uli Roth
J.S. Bach
G. Holst
I. Stravinsky
John Williams
Jason Becker

Bandas favoritas [editar]
Rush
Kansas
Judas Priest
Black Sabbath
UK
Pantera
Queen
ELP
Frank Zappa

Discografía con Symphony X [editar]
Dance Macabre - (Demo, 1994)
Symphony X (album) - (1994)
The Damnation Game - (1995)
The Divine Wings of Tragedy - (1997)
Twilight in Olympus - (1998)
Prelude to the Millennium - (1998)
V: The New Mythology Suite - (2000)
Live on the Edge of Forever - (2CD en Vivo, 2001)
The Odyssey - (2002)
Rarities And Demos - (Church Of The Machine Fan Club CD 1, 2005)
Paradise Lost - (Lanzamiento oficial 26 de Junio 2007)

Proyecto solista
The Dark Chapter (Instrumental) - 1994
The Guitar Chapter - Video Instruccional para guitarristas
[[Phantom's Opera - Self Titled 1997
Obtenido de "http://es.wikipedia.org/wiki/Michael_Romeo"