lunes, 21 de enero de 2008

Neoclassical Guitar Licks

Bueno pequeños licks la mayoria de Yngwie J. Malmsteen enjoi!!!

Lick 1:
12-17-12----------12-17-12----------12-16-12----------12-16-12----
---------13----13----------13----13----------15-12-15----------15-
------------14----------------14----------------------------------
------------------------------------------------------------------
------------------------------------------------------------------
------------------------------------------------------------------

------||5-8-5-------5-8-5-------7-10-7-------7-10-7-------8-12-8--
12-15-||------6---6-------7---7--------8---8--------9---9---------
-----*||--------5-----------7------------7------------9-----------
-----*||----------------------------------------------------------
------||----------------------------------------------------------
------||----------------------------------------------------------

-------7-10-7-------8-12-8---------7-10-7-------8-12-8------------
10--10--------9---9--------10---10--------9---9--------10---------
--9-------------9-------------9-------------9-------------9-------
------------------------------------------------------------10----
---------------------------------------------------------------12-
------------------------------------------------------------------

---------------12-17
------------13------
---------14---------
------14------------
12-15---------------
--------------------

Lick 2: (de la canción "Liar")
4-7-4-------4-7-10-7--------7-8-12-8---------8-12-17-12---------
------6---6----------9----9----------10---10------------13----13
--------7--------------10---------------9------------------14---
----------------------------------------------------------------
----------------------------------------------------------------
----------------------------------------------------------------

12-||9-12-9---------10-13-10---------7-10-7-------8-
---||-------10---10----------10---10--------8---8---
--*||----------9---------------10-------------7-----
--*||-----------------------------------------------
---||-----------------------------------------------
---||-----------------------------------------------

12-8-------6-10-6-------5-8-5-------4-7-4-------4-5
-----8---8--------6---6-------5---5-------5---5----
-------7------------7-----------5-----------7------
---------------------------------------------------
---------------------------------------------------
---------------------------------------------------

Lick 3: (de la canción "Never Die")
12-8---------8-12-8---------7-10-7--------7-10-7--------5-8-5-----
-----10---10--------10---10--------9----9--------9----9-------5---
--------9--------------9-------------10------------10-----------5-
------------------------------------------------------------------
------------------------------------------------------------------
------------------------------------------------------------------

--5-8-5-------4-7-4-------4-7-4-------7-10-7--------7-10-7--------
5-------5---5-------6---6-------6---6--------9----9--------9----9-
----------5-----------7-----------7------------10------------10---
------------------------------------------------------------------
------------------------------------------------------------------
------------------------------------------------------------------

8-12-8---------8-12-8---------11-14-11----------11-14-11----------
-------10---10--------10---10----------13----13----------13----13-
----------9--------------9----------------14----------------14----
------------------------------------------------------------------
------------------------------------------------------------------
------------------------------------------------------------------

11-16h17p16h17p16h17p16h17p16
-----------------------------
-----------------------------
-----------------------------
-----------------------------
-----------------------------

Lick 4 (tapping a la Malmsteen)
T T T T T T T T T T T T
/13-12-13-10-13-8-13-7-13-8-13-10-13-8-13-7-12-10-12-8-12-7-12-5-
-----------------------------------------------------------------
-----------------------------------------------------------------
-----------------------------------------------------------------
-----------------------------------------------------------------
-----------------------------------------------------------------

T T T T
12-7-12-8-12-7-12-5
-------------------
-------------------
-------------------
-------------------
-------------------

Lick 5 (este lick se toca muy rápido :p)
13-12-10----------------------------------------------------------
---------13-12-10-9-10-12-10-9------------------------------------
-------------------------------10-9-7-----------------------------
--------------------------------------10-9-7-6-7-9-7-6------------
-------------------------------------------------------8-7-5------
-------------------------------------------------------------8-7-5

Lick 6 (de la canción "I'll see the light tonight")
10-13-12-13-10-13-12-13-8-12-10-12-8-12-10-12-7-10-8-10-7-10-8-10-
------------------------------------------------------------------
------------------------------------------------------------------
------------------------------------------------------------------
------------------------------------------------------------------
------------------------------------------------------------------

5-8-7-8-5-8-7-8-10-13-12-13-7-10-8-10-8-12-10-12-5-8-7-8-7-10-8-10
------------------------------------------------------------------
------------------------------------------------------------------
------------------------------------------------------------------
------------------------------------------------------------------
------------------------------------------------------------------

-4-7-5-7-5-8-7-8-5-8-7-4-7-5-7-7-10-8-10-5-8-7-8-5-8-7-8-7-10-8-10
------------------------------------------------------------------
------------------------------------------------------------------
------------------------------------------------------------------
------------------------------------------------------------------
------------------------------------------------------------------

-10-13-12-13-8-12-10-12-10-13-12-13-------------------------------
------------------------------------9-12-10-12--------------------
-----------------------------------------------7-10-9-10----------
---------------------------------------------------------6-9-7-9--
-----------------------------------------------------------------5
------------------------------------------------------------------

----------------------------------
----------------------------------
----------------------------------
-----------------------6-7-9-7-6-5
-8-7-8---------5-8-7-8------------
-------4-7-5-7--------------------

Lick 7:
------12-17-12----------12-13-15-12-13-15-17-13-15-17-19-15-17-19-20
---13----------13----13---------------------------------------------
14----------------14------------------------------------------------
--------------------------------------------------------------------
--------------------------------------------------------------------
--------------------------------------------------------------------

Lick 8:
13-12-13-10-13-8-13----13----13----12-10-12-8-12-7-12----12---12---
--------------------12----10----12--------------------10----9----10
-------------------------------------------------------------------
-------------------------------------------------------------------
-------------------------------------------------------------------
-------------------------------------------------------------------

Lick 9:
4-5-7-4-5-7/8-5-7-8/10-7-8-10/12-8-10-12/13-10-12-13/16-12-13-16/17
-------------------------------------------------------------------
-------------------------------------------------------------------
-------------------------------------------------------------------
-------------------------------------------------------------------
-------------------------------------------------------------------

No hay comentarios: